  0
SECTION
  2
HEADER
  9
$ACADVER
  1
AC1009
  9
$INSBASE
 10
51.34801410937426
 20
154.9137110659874
 30
0.0
  9
$EXTMIN
 10
51.34801410937426
 20
154.7145046730966
 30
0.0
  9
$EXTMAX
 10
150.9426299475297
 20
234.4793985153769
 30
0.0
  9
$LIMMIN
 10
0.0
 20
0.0
  9
$LIMMAX
 10
420.0
 20
297.0
  9
$ORTHOMODE
 70
     1
  9
$REGENMODE
 70
     1
  9
$FILLMODE
 70
     1
  9
$QTEXTMODE
 70
     0
  9
$MIRRTEXT
 70
     0
  9
$DRAGMODE
 70
     2
  9
$LTSCALE
 40
1.0
  9
$OSMODE
 70
     0
  9
$ATTMODE
 70
     1
  9
$TEXTSIZE
 40
3.5
  9
$TRACEWID
 40
0.05
  9
$TEXTSTYLE
  7
STANDARD
  9
$CLAYER
  8
0
  9
$CELTYPE
  6
BYLAYER
  9
$CECOLOR
 62
   256
  9
$DIMSCALE
 40
1.0
  9
$DIMASZ
 40
2.5
  9
$DIMEXO
 40
1.0
  9
$DIMDLI
 40
8.0
  9
$DIMRND
 40
0.0
  9
$DIMDLE
 40
0.0
  9
$DIMEXE
 40
2.0
  9
$DIMTP
 40
0.1
  9
$DIMTM
 40
0.1
  9
$DIMTXT
 40
3.5
  9
$DIMCEN
 40
2.0
  9
$DIMTSZ
 40
0.0
  9
$DIMTOL
 70
     0
  9
$DIMLIM
 70
     0
  9
$DIMTIH
 70
     0
  9
$DIMTOH
 70
     0
  9
$DIMSE1
 70
     0
  9
$DIMSE2
 70
     0
  9
$DIMTAD
 70
     1
  9
$DIMZIN
 70
     8
  9
$DIMBLK
  1

  9
$DIMASO
 70
     0
  9
$DIMSHO
 70
     0
  9
$DIMPOST
  1

  9
$DIMAPOST
  1

  9
$DIMALT
 70
     0
  9
$DIMALTD
 70
     2
  9
$DIMALTF
 40
25.39999999999999
  9
$DIMLFAC
 40
1.0
  9
$DIMTOFL
 70
     1
  9
$DIMTVP
 40
0.0
  9
$DIMTIX
 70
     0
  9
$DIMSOXD
 70
     0
  9
$DIMSAH
 70
     0
  9
$DIMBLK1
  1

  9
$DIMBLK2
  1

  9
$DIMSTYLE
  2
*UNNAMED
  9
$DIMCLRD
 70
     0
  9
$DIMCLRE
 70
     0
  9
$DIMCLRT
 70
     0
  9
$DIMTFAC
 40
1.0
  9
$DIMGAP
 40
0.09
  9
$LUNITS
 70
     2
  9
$LUPREC
 70
     3
  9
$SKETCHINC
 40
0.1
  9
$FILLETRAD
 40
20.0
  9
$AUNITS
 70
     0
  9
$AUPREC
 70
     3
  9
$MENU
  1

  9
$ELEVATION
 40
0.0
  9
$PELEVATION
 40
0.0
  9
$THICKNESS
 40
0.0
  9
$LIMCHECK
 70
     0
  9
$BLIPMODE
 70
     0
  9
$CHAMFERA
 40
0.0
  9
$CHAMFERB
 40
0.0
  9
$SKPOLY
 70
     1
  9
$TDCREATE
 40
2448785.556117360
  9
$TDUPDATE
 40
2449393.430638657
  9
$TDINDWG
 40
0.0002866898
  9
$TDUSRTIMER
 40
0.0002866898
  9
$USRTIMER
 70
     1
  9
$ANGBASE
 50
0.0
  9
$ANGDIR
 70
     0
  9
$PDMODE
 70
     3
  9
$PDSIZE
 40
2.0
  9
$PLINEWID
 40
0.0
  9
$COORDS
 70
     2
  9
$SPLFRAME
 70
     0
  9
$SPLINETYPE
 70
     6
  9
$SPLINESEGS
 70
     8
  9
$ATTDIA
 70
     1
  9
$ATTREQ
 70
     1
  9
$HANDLING
 70
     0
  9
$HANDSEED
  5
98
  9
$SURFTAB1
 70
     6
  9
$SURFTAB2
 70
     6
  9
$SURFTYPE
 70
     6
  9
$SURFU
 70
     6
  9
$SURFV
 70
     6
  9
$UCSNAME
  2

  9
$UCSORG
 10
0.0
 20
0.0
 30
0.0
  9
$UCSXDIR
 10
1.0
 20
0.0
 30
0.0
  9
$UCSYDIR
 10
0.0
 20
1.0
 30
0.0
  9
$PUCSNAME
  2

  9
$PUCSORG
 10
0.0
 20
0.0
 30
0.0
  9
$PUCSXDIR
 10
1.0
 20
0.0
 30
0.0
  9
$PUCSYDIR
 10
0.0
 20
1.0
 30
0.0
  9
$USERI1
 70
     0
  9
$USERI2
 70
     3
  9
$USERI3
 70
    15
  9
$USERI4
 70
     0
  9
$USERI5
 70
     0
  9
$USERR1
 40
0.0
  9
$USERR2
 40
1.0
  9
$USERR3
 40
0.0
  9
$USERR4
 40
1.0
  9
$USERR5
 40
0.0
  9
$WORLDVIEW
 70
     1
  9
$SHADEDGE
 70
     3
  9
$SHADEDIF
 70
    70
  9
$TILEMODE
 70
     1
  9
$MAXACTVP
 70
    16
  9
$PINSBASE
 10
0.0
 20
0.0
 30
0.0
  9
$PLIMCHECK
 70
     0
  9
$PEXTMIN
 10
1.000000000000000E+20
 20
1.000000000000000E+20
 30
1.000000000000000E+20
  9
$PEXTMAX
 10
-1.000000000000000E+20
 20
-1.000000000000000E+20
 30
-1.000000000000000E+20
  9
$PLIMMIN
 10
0.0
 20
0.0
  9
$PLIMMAX
 10
12.0
 20
9.0
  9
$UNITMODE
 70
     0
  9
$VISRETAIN
 70
     0
  9
$PLINEGEN
 70
     0
  9
$PSLTSCALE
 70
     0
  9
$TREEDEPTH
 70
  3020
  9
$DWGCODEPAGE
  3
undefined
  0
ENDSEC
  0
SECTION
  2
TABLES
  0
TABLE
  2
VPORT
 70
     2
  0
VPORT
  2
*ACTIVE
 70
     0
 10
0.0
 20
0.0
 11
1.0
 21
1.0
 12
106.0626293263264
 22
197.8044051979203
 13
0.0
 23
0.0
 14
7.0
 24
7.0
 15
0.0
 25
0.0
 16
0.0
 26
0.0
 36
1.0
 17
0.0
 27
0.0
 37
0.0
 40
85.7813882638657
 41
1.275675675675675
 42
50.0
 43
0.0
 44
0.0
 50
0.0
 51
0.0
 71
     0
 72
 10000
 73
     1
 74
     0
 75
     0
 76
     0
 77
     0
 78
     0
  0
ENDTAB
  0
TABLE
  2
LTYPE
 70
     3
  0
LTYPE
  2
AUSGEZOGEN
 70
    64
  3
Solid line
 72
    65
 73
     0
 40
0.0
  0
LTYPE
  2
ITEM-STRICHGR
 70
    64
  3
-- -- -- -- -- 
 72
    65
 73
     2
 40
6.25
 49
5.0
 49
-1.25
  0
LTYPE
  2
ITEM-STRICHPUNKT
 70
    64
  3
__ . __ . __
 72
    65
 73
     4
 40
3.599999999999999
 49
2.399999999999999
 49
-0.6
 49
0.0
 49
-0.6
  0
ENDTAB
  0
TABLE
  2
LAYER
 70
     4
  0
LAYER
  2
0
 70
     0
 62
     7
  6
AUSGEZOGEN
  0
LAYER
  2
ITEM_50
 70
    64
 62
     7
  6
AUSGEZOGEN
  0
LAYER
  2
ITEM_STP
 70
    64
 62
     4
  6
ITEM-STRICHPUNKT
  0
LAYER
  2
ITEM_GSTRG
 70
    64
 62
     6
  6
ITEM-STRICHGR
  0
ENDTAB
  0
TABLE
  2
STYLE
 70
     1
  0
STYLE
  2
STANDARD
 70
     0
 40
0.0
 41
1.0
 50
0.0
 71
     0
 42
3.5
  3
iso
  4

  0
ENDTAB
  0
TABLE
  2
VIEW
 70
     0
  0
ENDTAB
  0
TABLE
  2
UCS
 70
     0
  0
ENDTAB
  0
TABLE
  2
APPID
 70
     1
  0
APPID
  2
ACAD
 70
    64
  0
ENDTAB
  0
TABLE
  2
DIMSTYLE
 70
     0
  0
ENDTAB
  0
ENDSEC
  0
SECTION
  2
BLOCKS
  0
ENDSEC
  0
SECTION
  2
ENTITIES
  0
LINE
  8
ITEM_GSTRG
 10
107.5821086962877
 20
231.1687383435971
 30
0.0
 11
104.1674409904968
 21
226.6687383435971
 31
0.0
  0
LINE
  8
ITEM_GSTRG
 10
55.11391952246081
 20
231.1687383435971
 30
0.0
 11
58.52858722825145
 21
226.6687383435973
 31
0.0
  0
LINE
  8
ITEM_GSTRG
 10
51.49801410937435
 20
230.9710617149591
 30
0.0
 11
54.76268181516512
 21
226.6687383435971
 31
0.0
  0
LINE
  8
ITEM_GSTRG
 10
51.49801410937435
 20
230.9710617149591
 30
0.0
 11
51.49801410937435
 21
232.0149035020662
 31
0.0
  0
LINE
  8
ITEM_GSTRG
 10
111.1980141093741
 20
230.9710617149591
 30
0.0
 11
111.1980141093741
 21
232.0149035020662
 31
0.0
  0
LINE
  8
ITEM_GSTRG
 10
111.1980141093741
 20
230.9710617149591
 30
0.0
 11
107.9333464035833
 21
226.6687383435973
 31
0.0
  0
ARC
  8
ITEM_GSTRG
 10
52.84801410937426
 20
232.6687383435971
 30
0.0
 40
1.5
 50
89.99999999999998
 51
270.0
  0
ARC
  8
ITEM_GSTRG
 10
109.8480141093742
 20
232.6687383435971
 30
0.0
 40
1.5
 50
270.0
 51
89.99999999999998
  0
LINE
  8
ITEM_GSTRG
 10
109.8480141093742
 20
234.1687383435971
 30
0.0
 11
52.84801410937426
 21
234.1687383435971
 31
0.0
  0
LINE
  8
ITEM_GSTRG
 10
109.8480141093742
 20
231.1687383435971
 30
0.0
 11
52.84801410937426
 21
231.1687383435971
 31
0.0
  0
LINE
  8
ITEM_50
 10
107.9333464035833
 20
226.6687383435973
 30
0.0
 11
89.3141812497398
 21
202.1315797058163
 31
0.0
  0
LINE
  8
ITEM_50
 10
104.1674409904968
 20
226.6687383435971
 30
0.0
 11
86.92433110763032
 21
203.9450061510587
 31
0.0
  0
LINE
  8
ITEM_50
 10
58.52858722825145
 20
226.6687383435973
 30
0.0
 11
75.77169711111842
 21
203.9450061510587
 31
0.0
  0
LINE
  8
ITEM_50
 10
54.76268181516512
 20
226.6687383435971
 30
0.0
 11
73.38184696900871
 21
202.1315797058163
 31
0.0
  0
LINE
  8
ITEM_STP
 10
81.34801410937426
 20
208.1687383435971
 30
0.0
 11
81.34801410937426
 21
202.2117972132818
 31
0.0
  0
LINE
  8
ITEM_STP
 10
81.34801410937426
 20
208.1687383435971
 30
0.0
 11
75.39107297905898
 21
208.1687383435971
 31
0.0
  0
LINE
  8
ITEM_STP
 10
81.34801410937426
 20
208.1687383435971
 30
0.0
 11
81.34801410937426
 21
214.1256794739123
 31
0.0
  0
LINE
  8
ITEM_STP
 10
81.34801410937426
 20
208.1687383435971
 30
0.0
 11
87.30495523968953
 21
208.1687383435971
 31
0.0
  0
ARC
  8
ITEM_50
 10
81.34801410937426
 20
208.1764271887361
 30
0.0
 40
10.0
 50
217.1917738622939
 51
322.8082261377061
  0
ARC
  8
ITEM_50
 10
81.34801410937426
 20
208.1763993891026
 30
0.0
 40
7.0
 50
217.1917738622939
 51
322.808226137706
  0
CIRCLE
  8
ITEM_50
 10
81.34801410937426
 20
208.1687383435971
 30
0.0
 40
4.0
  0
LINE
  8
ITEM_50
 10
138.8819697757499
 20
226.668738343597
 30
0.0
 11
138.8819697757499
 21
231.1687383435971
 31
0.0
  0
ARC
  8
ITEM_50
 10
149.1319697757499
 20
232.668738343597
 30
0.0
 40
1.5
 50
270.0
 51
0.0
  0
ARC
  8
ITEM_50
 10
134.1319697757499
 20
232.6687383435971
 30
0.0
 40
1.5
 50
180.0000000000005
 51
270.0
  0
ARC
  8
ITEM_50
 10
134.1319697757499
 20
232.6687383435971
 30
0.0
 40
1.5
 50
89.9999999999998
 51
180.0
  0
ARC
  8
ITEM_50
 10
149.1319697757499
 20
232.668738343597
 30
0.0
 40
1.5
 50
0.0
 51
89.99999999999981
  0
LINE
  8
ITEM_50
 10
138.8819697757499
 20
231.1687383435971
 30
0.0
 11
134.1319697757499
 21
231.1687383435971
 31
0.0
  0
LINE
  8
ITEM_50
 10
144.3819697757499
 20
231.168738343597
 30
0.0
 11
144.3819697757499
 21
226.668738343597
 31
0.0
  0
LINE
  8
ITEM_50
 10
149.1319697757499
 20
231.168738343597
 30
0.0
 11
144.3819697757499
 21
231.168738343597
 31
0.0
  0
LINE
  8
ITEM_50
 10
134.1319681447703
 20
234.1687383435971
 30
0.0
 11
149.1319720019654
 21
234.168738343597
 31
0.0
  0
LINE
  8
ITEM_50
 10
144.3819697757499
 20
226.668738343597
 30
0.0
 11
144.3819697757499
 21
202.668738343597
 31
0.0
  0
ARC
  8
ITEM_50
 10
140.3819697757499
 20
202.6687383435971
 30
0.0
 40
1.5
 50
180.0
 51
269.9999999999992
  0
ARC
  8
ITEM_50
 10
142.8819697757499
 20
202.668738343597
 30
0.0
 40
1.5
 50
269.9999999999993
 51
0.0
  0
LINE
  8
ITEM_STP
 10
132.6319697757499
 20
211.1687383435971
 30
0.0
 11
150.6319697757499
 21
211.168738343597
 31
0.0
  0
LINE
  8
ITEM_50
 10
138.8819697757499
 20
202.6687383435971
 30
0.0
 11
138.8819697757499
 21
226.668738343597
 31
0.0
  0
LINE
  8
ITEM_50
 10
142.8819697757499
 20
201.168738343597
 30
0.0
 11
140.3819697757499
 21
201.1687383435971
 31
0.0
  0
LINE
  8
ITEM_STP
 10
81.34801410937426
 20
171.6637110659875
 30
0.0
 11
81.34801410937426
 21
156.1637110659875
 31
0.0
  0
LINE
  8
ITEM_GSTRG
 10
77.34801410937426
 20
166.6637110659875
 30
0.0
 11
77.34801410937426
 21
161.1637110659875
 31
0.0
  0
LINE
  8
ITEM_GSTRG
 10
85.34801410937426
 20
166.6637110659875
 30
0.0
 11
85.34801410937426
 21
161.1637110659875
 31
0.0
  0
LINE
  8
ITEM_GSTRG
 10
51.49213550240264
 20
161.1637110659875
 30
0.0
 11
111.2038927163459
 21
161.1637110659875
 31
0.0
  0
LINE
  8
ITEM_GSTRG
 10
111.2038927163458
 20
166.6637110659875
 30
0.0
 11
51.4921355024026
 21
166.6637110659874
 31
0.0
  0
LINE
  8
ITEM_GSTRG
 10
51.34801410937427
 20
163.9137110659882
 30
0.0
 11
51.7700191548819
 21
171.9660470222304
 31
0.0
  0
LINE
  8
ITEM_GSTRG
 10
51.77001915488192
 20
155.8613751097445
 30
0.0
 11
51.34801410937427
 21
163.9137110659882
 31
0.0
  0
LINE
  8
ITEM_GSTRG
 10
109.927379529112
 20
154.9137110659875
 30
0.0
 11
52.76864868963649
 21
154.9137110659874
 31
0.0
  0
LINE
  8
ITEM_GSTRG
 10
111.3480141093742
 20
163.9137110659873
 30
0.0
 11
110.9260090638665
 21
155.8613751097445
 31
0.0
  0
LINE
  8
ITEM_GSTRG
 10
110.9260090638665
 20
171.9660470222304
 30
0.0
 11
111.3480141093742
 21
163.9137110659873
 31
0.0
  0
LINE
  8
ITEM_GSTRG
 10
52.76864868963647
 20
172.9137110659875
 30
0.0
 11
109.927379529112
 21
172.9137110659874
 31
0.0
  0
ARC
  8
ITEM_GSTRG
 10
52.76864868963647
 20
171.9137110659875
 30
0.0
 40
1.0
 50
89.99999999999997
 51
177.0
  0
ARC
  8
ITEM_GSTRG
 10
109.927379529112
 20
171.9137110659874
 30
0.0
 40
1.0
 50
2.999999999999915
 51
89.99999999999997
  0
ARC
  8
ITEM_GSTRG
 10
52.76864868963649
 20
155.9137110659874
 30
0.0
 40
1.0
 50
182.9999999999994
 51
270.0
  0
ARC
  8
ITEM_GSTRG
 10
109.927379529112
 20
155.9137110659875
 30
0.0
 40
1.0
 50
270.0
 51
357.0
  0
ENDSEC
  0
EOF
